ISO-10303-21;
HEADER;
/* Generated by software containing ST-Developer
 * from STEP Tools, Inc. (www.steptools.com) 
 */
/* OPTION: using custom schema-name function */

FILE_DESCRIPTION(
/* description */ (''),
/* implementation_level */ '2;1');

FILE_NAME(
/* name */ 'EX-FT51.stp',
/* time_stamp */ '2023-04-10T10:37:12+08:00',
/* author */ (''),
/* organization */ (''),
/* preprocessor_version */ 'ST-DEVELOPER v16.7',
/* originating_system */ 'SIEMENS PLM Software NX 12.0',
/* authorisation */ '');

FILE_SCHEMA (('AUTOMOTIVE_DESIGN { 1 0 10303 214 3 1 1 1 }'));
ENDSEC;

DATA;
#10=SHAPE_REPRESENTATION_RELATIONSHIP('None',
'relationship between EX-FT51-None and EX-FT51-None',#22,#11);
#11=ADVANCED_BREP_SHAPE_REPRESENTATION('EX-FT51-None',(#32),#415);
#12=SHAPE_DEFINITION_REPRESENTATION(#13,#22);
#13=PRODUCT_DEFINITION_SHAPE('','',#14);
#14=PRODUCT_DEFINITION(' ','',#16,#15);
#15=PRODUCT_DEFINITION_CONTEXT('part definition',#21,'design');
#16=PRODUCT_DEFINITION_FORMATION_WITH_SPECIFIED_SOURCE(' ',' ',#18,
 .NOT_KNOWN.);
#17=PRODUCT_RELATED_PRODUCT_CATEGORY('part','',(#18));
#18=PRODUCT('EX-FT51','EX-FT51',' ',(#19));
#19=PRODUCT_CONTEXT(' ',#21,'mechanical');
#20=APPLICATION_PROTOCOL_DEFINITION('international standard',
'automotive_design',2010,#21);
#21=APPLICATION_CONTEXT(
'core data for automotive mechanical design processes');
#22=SHAPE_REPRESENTATION('EX-FT51-None',(#254),#415);
#23=PRESENTATION_LAYER_ASSIGNMENT('1','Layer 1',(#32));
#24=STYLED_ITEM('',(#25),#32);
#25=PRESENTATION_STYLE_ASSIGNMENT((#26));
#26=SURFACE_STYLE_USAGE(.BOTH.,#27);
#27=SURFACE_SIDE_STYLE('',(#28));
#28=SURFACE_STYLE_FILL_AREA(#29);
#29=FILL_AREA_STYLE('',(#30));
#30=FILL_AREA_STYLE_COLOUR('',#31);
#31=COLOUR_RGB('Orange',1.,0.6,0.);
#32=MANIFOLD_SOLID_BREP('',#33);
#33=CLOSED_SHELL('',(#72,#73,#74,#75,#76,#77,#78,#79,#80,#81,#82,#83,#84,
#85,#86,#87));
#34=FACE_OUTER_BOUND('',#126,.T.);
#35=FACE_OUTER_BOUND('',#129,.T.);
#36=FACE_OUTER_BOUND('',#146,.T.);
#37=FACE_OUTER_BOUND('',#149,.T.);
#38=PLANE('',#262);
#39=PLANE('',#263);
#40=PLANE('',#265);
#41=PLANE('',#266);
#42=PLANE('',#267);
#43=PLANE('',#270);
#44=PLANE('',#273);
#45=PLANE('',#276);
#46=PLANE('',#279);
#47=PLANE('',#282);
#48=LINE('',#366,#60);
#49=LINE('',#369,#61);
#50=LINE('',#371,#62);
#51=LINE('',#373,#63);
#52=LINE('',#375,#64);
#53=LINE('',#377,#65);
#54=LINE('',#379,#66);
#55=LINE('',#383,#67);
#56=LINE('',#385,#68);
#57=LINE('',#387,#69);
#58=LINE('',#389,#70);
#59=LINE('',#390,#71);
#60=VECTOR('',#299,1.);
#61=VECTOR('',#300,1.);
#62=VECTOR('',#301,1.);
#63=VECTOR('',#302,1.);
#64=VECTOR('',#305,1.);
#65=VECTOR('',#306,1.);
#66=VECTOR('',#307,1.);
#67=VECTOR('',#312,1.);
#68=VECTOR('',#313,1.);
#69=VECTOR('',#314,1.);
#70=VECTOR('',#317,1.);
#71=VECTOR('',#318,1.);
#72=ADVANCED_FACE('',(#94,#95),#88,.F.);
#73=ADVANCED_FACE('',(#96,#97),#89,.F.);
#74=ADVANCED_FACE('',(#98,#99),#38,.T.);
#75=ADVANCED_FACE('',(#34),#39,.T.);
#76=ADVANCED_FACE('',(#100,#101),#40,.T.);
#77=ADVANCED_FACE('',(#35),#41,.T.);
#78=ADVANCED_FACE('',(#102,#103,#104),#42,.F.);
#79=ADVANCED_FACE('',(#105,#106,#107),#43,.T.);
#80=ADVANCED_FACE('',(#108,#109),#90,.F.);
#81=ADVANCED_FACE('',(#110,#111),#44,.T.);
#82=ADVANCED_FACE('',(#112,#113),#91,.F.);
#83=ADVANCED_FACE('',(#114,#115),#45,.T.);
#84=ADVANCED_FACE('',(#116,#117),#92,.T.);
#85=ADVANCED_FACE('',(#36),#46,.T.);
#86=ADVANCED_FACE('',(#118,#119),#93,.F.);
#87=ADVANCED_FACE('',(#37),#47,.F.);
#88=CYLINDRICAL_SURFACE('',#257,1.8);
#89=CYLINDRICAL_SURFACE('',#260,1.8);
#90=CYLINDRICAL_SURFACE('',#272,1.05);
#91=CYLINDRICAL_SURFACE('',#275,1.05);
#92=CYLINDRICAL_SURFACE('',#278,0.5);
#93=CYLINDRICAL_SURFACE('',#281,0.25);
#94=FACE_BOUND('',#120,.T.);
#95=FACE_BOUND('',#121,.T.);
#96=FACE_BOUND('',#122,.T.);
#97=FACE_BOUND('',#123,.T.);
#98=FACE_BOUND('',#124,.T.);
#99=FACE_BOUND('',#125,.T.);
#100=FACE_BOUND('',#127,.T.);
#101=FACE_BOUND('',#128,.T.);
#102=FACE_BOUND('',#130,.T.);
#103=FACE_BOUND('',#131,.T.);
#104=FACE_BOUND('',#132,.T.);
#105=FACE_BOUND('',#133,.T.);
#106=FACE_BOUND('',#134,.T.);
#107=FACE_BOUND('',#135,.T.);
#108=FACE_BOUND('',#136,.T.);
#109=FACE_BOUND('',#137,.T.);
#110=FACE_BOUND('',#138,.T.);
#111=FACE_BOUND('',#139,.T.);
#112=FACE_BOUND('',#140,.T.);
#113=FACE_BOUND('',#141,.T.);
#114=FACE_BOUND('',#142,.T.);
#115=FACE_BOUND('',#143,.T.);
#116=FACE_BOUND('',#144,.T.);
#117=FACE_BOUND('',#145,.T.);
#118=FACE_BOUND('',#147,.T.);
#119=FACE_BOUND('',#148,.T.);
#120=EDGE_LOOP('',(#150));
#121=EDGE_LOOP('',(#151));
#122=EDGE_LOOP('',(#152));
#123=EDGE_LOOP('',(#153));
#124=EDGE_LOOP('',(#154));
#125=EDGE_LOOP('',(#155,#156,#157,#158));
#126=EDGE_LOOP('',(#159,#160,#161,#162));
#127=EDGE_LOOP('',(#163));
#128=EDGE_LOOP('',(#164,#165,#166,#167));
#129=EDGE_LOOP('',(#168,#169,#170,#171));
#130=EDGE_LOOP('',(#172));
#131=EDGE_LOOP('',(#173));
#132=EDGE_LOOP('',(#174,#175,#176,#177));
#133=EDGE_LOOP('',(#178,#179,#180,#181));
#134=EDGE_LOOP('',(#182));
#135=EDGE_LOOP('',(#183));
#136=EDGE_LOOP('',(#184));
#137=EDGE_LOOP('',(#185));
#138=EDGE_LOOP('',(#186));
#139=EDGE_LOOP('',(#187));
#140=EDGE_LOOP('',(#188));
#141=EDGE_LOOP('',(#189));
#142=EDGE_LOOP('',(#190));
#143=EDGE_LOOP('',(#191));
#144=EDGE_LOOP('',(#192));
#145=EDGE_LOOP('',(#193));
#146=EDGE_LOOP('',(#194));
#147=EDGE_LOOP('',(#195));
#148=EDGE_LOOP('',(#196));
#149=EDGE_LOOP('',(#197));
#150=ORIENTED_EDGE('',*,*,#218,.T.);
#151=ORIENTED_EDGE('',*,*,#219,.F.);
#152=ORIENTED_EDGE('',*,*,#220,.T.);
#153=ORIENTED_EDGE('',*,*,#221,.F.);
#154=ORIENTED_EDGE('',*,*,#222,.F.);
#155=ORIENTED_EDGE('',*,*,#223,.F.);
#156=ORIENTED_EDGE('',*,*,#224,.F.);
#157=ORIENTED_EDGE('',*,*,#225,.T.);
#158=ORIENTED_EDGE('',*,*,#226,.T.);
#159=ORIENTED_EDGE('',*,*,#227,.F.);
#160=ORIENTED_EDGE('',*,*,#226,.F.);
#161=ORIENTED_EDGE('',*,*,#228,.T.);
#162=ORIENTED_EDGE('',*,*,#229,.T.);
#163=ORIENTED_EDGE('',*,*,#230,.T.);
#164=ORIENTED_EDGE('',*,*,#231,.F.);
#165=ORIENTED_EDGE('',*,*,#229,.F.);
#166=ORIENTED_EDGE('',*,*,#232,.T.);
#167=ORIENTED_EDGE('',*,*,#233,.T.);
#168=ORIENTED_EDGE('',*,*,#234,.F.);
#169=ORIENTED_EDGE('',*,*,#233,.F.);
#170=ORIENTED_EDGE('',*,*,#235,.T.);
#171=ORIENTED_EDGE('',*,*,#224,.T.);
#172=ORIENTED_EDGE('',*,*,#220,.F.);
#173=ORIENTED_EDGE('',*,*,#218,.F.);
#174=ORIENTED_EDGE('',*,*,#225,.F.);
#175=ORIENTED_EDGE('',*,*,#235,.F.);
#176=ORIENTED_EDGE('',*,*,#232,.F.);
#177=ORIENTED_EDGE('',*,*,#228,.F.);
#178=ORIENTED_EDGE('',*,*,#223,.T.);
#179=ORIENTED_EDGE('',*,*,#227,.T.);
#180=ORIENTED_EDGE('',*,*,#231,.T.);
#181=ORIENTED_EDGE('',*,*,#234,.T.);
#182=ORIENTED_EDGE('',*,*,#236,.T.);
#183=ORIENTED_EDGE('',*,*,#237,.T.);
#184=ORIENTED_EDGE('',*,*,#236,.F.);
#185=ORIENTED_EDGE('',*,*,#238,.T.);
#186=ORIENTED_EDGE('',*,*,#221,.T.);
#187=ORIENTED_EDGE('',*,*,#238,.F.);
#188=ORIENTED_EDGE('',*,*,#237,.F.);
#189=ORIENTED_EDGE('',*,*,#239,.T.);
#190=ORIENTED_EDGE('',*,*,#219,.T.);
#191=ORIENTED_EDGE('',*,*,#239,.F.);
#192=ORIENTED_EDGE('',*,*,#240,.F.);
#193=ORIENTED_EDGE('',*,*,#222,.T.);
#194=ORIENTED_EDGE('',*,*,#240,.T.);
#195=ORIENTED_EDGE('',*,*,#241,.F.);
#196=ORIENTED_EDGE('',*,*,#230,.F.);
#197=ORIENTED_EDGE('',*,*,#241,.T.);
#198=VERTEX_POINT('',#355);
#199=VERTEX_POINT('',#357);
#200=VERTEX_POINT('',#360);
#201=VERTEX_POINT('',#362);
#202=VERTEX_POINT('',#365);
#203=VERTEX_POINT('',#367);
#204=VERTEX_POINT('',#368);
#205=VERTEX_POINT('',#370);
#206=VERTEX_POINT('',#372);
#207=VERTEX_POINT('',#376);
#208=VERTEX_POINT('',#378);
#209=VERTEX_POINT('',#382);
#210=VERTEX_POINT('',#384);
#211=VERTEX_POINT('',#386);
#212=VERTEX_POINT('',#394);
#213=VERTEX_POINT('',#396);
#214=VERTEX_POINT('',#399);
#215=VERTEX_POINT('',#403);
#216=VERTEX_POINT('',#407);
#217=VERTEX_POINT('',#411);
#218=EDGE_CURVE('',#198,#198,#242,.T.);
#219=EDGE_CURVE('',#199,#199,#243,.T.);
#220=EDGE_CURVE('',#200,#200,#244,.T.);
#221=EDGE_CURVE('',#201,#201,#245,.T.);
#222=EDGE_CURVE('',#202,#202,#246,.T.);
#223=EDGE_CURVE('',#203,#204,#48,.T.);
#224=EDGE_CURVE('',#205,#203,#49,.T.);
#225=EDGE_CURVE('',#205,#206,#50,.T.);
#226=EDGE_CURVE('',#206,#204,#51,.T.);
#227=EDGE_CURVE('',#204,#207,#52,.T.);
#228=EDGE_CURVE('',#206,#208,#53,.T.);
#229=EDGE_CURVE('',#208,#207,#54,.T.);
#230=EDGE_CURVE('',#209,#209,#247,.T.);
#231=EDGE_CURVE('',#207,#210,#55,.T.);
#232=EDGE_CURVE('',#208,#211,#56,.T.);
#233=EDGE_CURVE('',#211,#210,#57,.T.);
#234=EDGE_CURVE('',#210,#203,#58,.T.);
#235=EDGE_CURVE('',#211,#205,#59,.T.);
#236=EDGE_CURVE('',#212,#212,#248,.T.);
#237=EDGE_CURVE('',#213,#213,#249,.T.);
#238=EDGE_CURVE('',#214,#214,#250,.T.);
#239=EDGE_CURVE('',#215,#215,#251,.T.);
#240=EDGE_CURVE('',#216,#216,#252,.T.);
#241=EDGE_CURVE('',#217,#217,#253,.T.);
#242=CIRCLE('',#255,1.8);
#243=CIRCLE('',#256,1.8);
#244=CIRCLE('',#258,1.8);
#245=CIRCLE('',#259,1.8);
#246=CIRCLE('',#261,0.5);
#247=CIRCLE('',#264,0.25);
#248=CIRCLE('',#268,1.05);
#249=CIRCLE('',#269,1.05);
#250=CIRCLE('',#271,1.05);
#251=CIRCLE('',#274,1.05);
#252=CIRCLE('',#277,0.5);
#253=CIRCLE('',#280,0.25);
#254=AXIS2_PLACEMENT_3D('',#353,#283,#284);
#255=AXIS2_PLACEMENT_3D('',#354,#285,#286);
#256=AXIS2_PLACEMENT_3D('',#356,#287,#288);
#257=AXIS2_PLACEMENT_3D('',#358,#289,#290);
#258=AXIS2_PLACEMENT_3D('',#359,#291,#292);
#259=AXIS2_PLACEMENT_3D('',#361,#293,#294);
#260=AXIS2_PLACEMENT_3D('',#363,#295,#296);
#261=AXIS2_PLACEMENT_3D('',#364,#297,#298);
#262=AXIS2_PLACEMENT_3D('',#374,#303,#304);
#263=AXIS2_PLACEMENT_3D('',#380,#308,#309);
#264=AXIS2_PLACEMENT_3D('',#381,#310,#311);
#265=AXIS2_PLACEMENT_3D('',#388,#315,#316);
#266=AXIS2_PLACEMENT_3D('',#391,#319,#320);
#267=AXIS2_PLACEMENT_3D('',#392,#321,#322);
#268=AXIS2_PLACEMENT_3D('',#393,#323,#324);
#269=AXIS2_PLACEMENT_3D('',#395,#325,#326);
#270=AXIS2_PLACEMENT_3D('',#397,#327,#328);
#271=AXIS2_PLACEMENT_3D('',#398,#329,#330);
#272=AXIS2_PLACEMENT_3D('',#400,#331,#332);
#273=AXIS2_PLACEMENT_3D('',#401,#333,#334);
#274=AXIS2_PLACEMENT_3D('',#402,#335,#336);
#275=AXIS2_PLACEMENT_3D('',#404,#337,#338);
#276=AXIS2_PLACEMENT_3D('',#405,#339,#340);
#277=AXIS2_PLACEMENT_3D('',#406,#341,#342);
#278=AXIS2_PLACEMENT_3D('',#408,#343,#344);
#279=AXIS2_PLACEMENT_3D('',#409,#345,#346);
#280=AXIS2_PLACEMENT_3D('',#410,#347,#348);
#281=AXIS2_PLACEMENT_3D('',#412,#349,#350);
#282=AXIS2_PLACEMENT_3D('',#413,#351,#352);
#283=DIRECTION('',(0.,0.,1.));
#284=DIRECTION('',(1.,0.,0.));
#285=DIRECTION('',(1.,0.,0.));
#286=DIRECTION('',(0.,1.,0.));
#287=DIRECTION('',(1.,0.,0.));
#288=DIRECTION('',(0.,1.,0.));
#289=DIRECTION('',(1.,0.,0.));
#290=DIRECTION('',(0.,0.,-1.));
#291=DIRECTION('',(1.,0.,0.));
#292=DIRECTION('',(0.,1.,0.));
#293=DIRECTION('',(1.,0.,0.));
#294=DIRECTION('',(0.,1.,0.));
#295=DIRECTION('',(1.,0.,0.));
#296=DIRECTION('',(0.,0.,-1.));
#297=DIRECTION('',(0.,1.,0.));
#298=DIRECTION('',(-1.,0.,0.));
#299=DIRECTION('',(0.,0.,-1.));
#300=DIRECTION('',(-1.,0.,0.));
#301=DIRECTION('',(0.,0.,-1.));
#302=DIRECTION('',(-1.,0.,0.));
#303=DIRECTION('',(0.,1.,0.));
#304=DIRECTION('',(0.,0.,1.));
#305=DIRECTION('',(0.,-1.,0.));
#306=DIRECTION('',(0.,-1.,0.));
#307=DIRECTION('',(-1.,0.,0.));
#308=DIRECTION('',(0.,0.,-1.));
#309=DIRECTION('',(-1.,0.,0.));
#310=DIRECTION('',(0.,1.,0.));
#311=DIRECTION('',(1.,0.,0.));
#312=DIRECTION('',(0.,0.,1.));
#313=DIRECTION('',(0.,0.,1.));
#314=DIRECTION('',(-1.,0.,0.));
#315=DIRECTION('',(0.,-1.,0.));
#316=DIRECTION('',(0.,0.,-1.));
#317=DIRECTION('',(0.,1.,0.));
#318=DIRECTION('',(0.,1.,0.));
#319=DIRECTION('',(0.,0.,1.));
#320=DIRECTION('',(1.,0.,0.));
#321=DIRECTION('',(-1.,0.,0.));
#322=DIRECTION('',(0.,0.,1.));
#323=DIRECTION('',(1.,0.,0.));
#324=DIRECTION('',(0.,1.,0.));
#325=DIRECTION('',(1.,0.,0.));
#326=DIRECTION('',(0.,1.,0.));
#327=DIRECTION('',(-1.,0.,0.));
#328=DIRECTION('',(0.,0.,1.));
#329=DIRECTION('',(1.,0.,0.));
#330=DIRECTION('',(0.,1.,0.));
#331=DIRECTION('',(1.,0.,0.));
#332=DIRECTION('',(0.,0.,-1.));
#333=DIRECTION('',(1.,0.,0.));
#334=DIRECTION('',(0.,0.,-1.));
#335=DIRECTION('',(1.,0.,0.));
#336=DIRECTION('',(0.,1.,0.));
#337=DIRECTION('',(1.,0.,0.));
#338=DIRECTION('',(0.,0.,-1.));
#339=DIRECTION('',(1.,0.,0.));
#340=DIRECTION('',(0.,0.,-1.));
#341=DIRECTION('',(0.,1.,0.));
#342=DIRECTION('',(-1.,0.,0.));
#343=DIRECTION('',(0.,-1.,0.));
#344=DIRECTION('',(0.,0.,-0.999999999999999));
#345=DIRECTION('',(0.,1.,0.));
#346=DIRECTION('',(0.,0.,1.));
#347=DIRECTION('',(0.,-1.,0.));
#348=DIRECTION('',(1.,0.,0.));
#349=DIRECTION('',(0.,-1.,0.));
#350=DIRECTION('',(0.,0.,-1.));
#351=DIRECTION('',(0.,1.,0.));
#352=DIRECTION('',(0.,0.,1.));
#353=CARTESIAN_POINT('',(0.,0.,0.));
#354=CARTESIAN_POINT('',(3.,2.5,2.5));
#355=CARTESIAN_POINT('',(3.,4.3,2.5));
#356=CARTESIAN_POINT('',(2.3,2.5,2.5));
#357=CARTESIAN_POINT('',(2.3,4.3,2.5));
#358=CARTESIAN_POINT('',(0.,2.5,2.5));
#359=CARTESIAN_POINT('',(3.,2.5,7.5));
#360=CARTESIAN_POINT('',(3.,4.3,7.5));
#361=CARTESIAN_POINT('',(2.3,2.5,7.5));
#362=CARTESIAN_POINT('',(2.3,4.3,7.5));
#363=CARTESIAN_POINT('',(0.,2.5,7.5));
#364=CARTESIAN_POINT('',(1.5,10.,5.));
#365=CARTESIAN_POINT('',(1.,10.,5.));
#366=CARTESIAN_POINT('',(0.,10.,10.));
#367=CARTESIAN_POINT('',(0.,10.,10.));
#368=CARTESIAN_POINT('',(0.,10.,0.));
#369=CARTESIAN_POINT('',(3.,10.,10.));
#370=CARTESIAN_POINT('',(3.,10.,10.));
#371=CARTESIAN_POINT('',(3.,10.,10.));
#372=CARTESIAN_POINT('',(3.,10.,0.));
#373=CARTESIAN_POINT('',(3.,10.,0.));
#374=CARTESIAN_POINT('',(3.,10.,10.));
#375=CARTESIAN_POINT('',(0.,10.,0.));
#376=CARTESIAN_POINT('',(0.,0.,0.));
#377=CARTESIAN_POINT('',(3.,10.,0.));
#378=CARTESIAN_POINT('',(3.,0.,0.));
#379=CARTESIAN_POINT('',(3.,0.,0.));
#380=CARTESIAN_POINT('',(3.,10.,0.));
#381=CARTESIAN_POINT('',(1.5,0.,5.));
#382=CARTESIAN_POINT('',(1.75,0.,5.));
#383=CARTESIAN_POINT('',(0.,0.,0.));
#384=CARTESIAN_POINT('',(0.,0.,10.));
#385=CARTESIAN_POINT('',(3.,0.,0.));
#386=CARTESIAN_POINT('',(3.,0.,10.));
#387=CARTESIAN_POINT('',(3.,0.,10.));
#388=CARTESIAN_POINT('',(3.,0.,0.));
#389=CARTESIAN_POINT('',(0.,0.,10.));
#390=CARTESIAN_POINT('',(3.,0.,10.));
#391=CARTESIAN_POINT('',(3.,0.,10.));
#392=CARTESIAN_POINT('',(3.,0.,0.));
#393=CARTESIAN_POINT('',(0.,2.5,7.5));
#394=CARTESIAN_POINT('',(0.,3.55,7.5));
#395=CARTESIAN_POINT('',(0.,2.5,2.5));
#396=CARTESIAN_POINT('',(0.,3.55,2.5));
#397=CARTESIAN_POINT('',(0.,0.,0.));
#398=CARTESIAN_POINT('',(2.3,2.5,7.5));
#399=CARTESIAN_POINT('',(2.3,3.55,7.5));
#400=CARTESIAN_POINT('',(0.,2.5,7.5));
#401=CARTESIAN_POINT('',(2.3,2.5,7.5));
#402=CARTESIAN_POINT('',(2.3,2.5,2.5));
#403=CARTESIAN_POINT('',(2.3,3.55,2.5));
#404=CARTESIAN_POINT('',(0.,2.5,2.5));
#405=CARTESIAN_POINT('',(2.3,2.5,2.5));
#406=CARTESIAN_POINT('',(1.5,30.,5.));
#407=CARTESIAN_POINT('',(1.,30.,5.));
#408=CARTESIAN_POINT('',(1.5,30.,5.));
#409=CARTESIAN_POINT('',(1.5,30.,5.));
#410=CARTESIAN_POINT('',(1.5,0.05,5.));
#411=CARTESIAN_POINT('',(1.75,0.05,5.));
#412=CARTESIAN_POINT('',(1.5,0.05,5.));
#413=CARTESIAN_POINT('',(1.5,0.05,5.));
#414=MECHANICAL_DESIGN_GEOMETRIC_PRESENTATION_REPRESENTATION('',(#24),#415);
#415=(
GEOMETRIC_REPRESENTATION_CONTEXT(3)
GLOBAL_UNCERTAINTY_ASSIGNED_CONTEXT((#416))
GLOBAL_UNIT_ASSIGNED_CONTEXT((#422,#418,#417))
REPRESENTATION_CONTEXT('EX-FT51','TOP_LEVEL_ASSEMBLY_PART')
);
#416=UNCERTAINTY_MEASURE_WITH_UNIT(LENGTH_MEASURE(2.E-5),#422,
'DISTANCE_ACCURACY_VALUE','Maximum Tolerance applied to model');
#417=(
NAMED_UNIT(*)
SI_UNIT($,.STERADIAN.)
SOLID_ANGLE_UNIT()
);
#418=(
CONVERSION_BASED_UNIT('DEGREE',#420)
NAMED_UNIT(#419)
PLANE_ANGLE_UNIT()
);
#419=DIMENSIONAL_EXPONENTS(0.,0.,0.,0.,0.,0.,0.);
#420=PLANE_ANGLE_MEASURE_WITH_UNIT(PLANE_ANGLE_MEASURE(0.0174532925),#421);
#421=(
NAMED_UNIT(*)
PLANE_ANGLE_UNIT()
SI_UNIT($,.RADIAN.)
);
#422=(
LENGTH_UNIT()
NAMED_UNIT(*)
SI_UNIT(.MILLI.,.METRE.)
);
ENDSEC;
END-ISO-10303-21;
